VGJam Tabs Adventure Time: Hey Ice King! Why'd You Steal Our Garbage?!
Adventure Time: Hey Ice King! Why'd You Steal Our Garbage?!
"Forget it Lemongrab" - Guitar tab
Platform(s):Multi-platformNintendo 3DSNintendo DS
Composed by:Jake Kaufman
Tabbed by:Deezer
Last modified:2013-01-10
Date added:2013-01-10
Print it:Original file (.TXT)
#----------------------------------PLEASE NOTE---------------------------------#
#This file is the author's own work and represents their interpretation of the #
#song. You may only use this file for private study, scholarship, or research. #
#------------------------------------------------------------------------------#


Adventure Time: Hey Ice King! Why'd You Steal Our Garbage?!
 (Nintendo 3DS, Nintendo DS)
"Forget it Lemongrab"

Originally composed by: Jake Kaufman  
------------------------------------------------------------------------------
Tabbed by: Deezer (deezer AT videogamejam DOT com)
For http://www.videogamejam.com
------------------------------------------------------------------------------

You can hear this tune, and the rest of the game soundtrack, at:
https://soundcloud.com/d3publisher/sets/adventure-time-hey-ice-king-ost


Legend:
  / = slide up

Standard tuning: (low to high) EADGBe


G1|--------------------------|--------------------------|
U |--------------------------|--------------------------|
I |--------------------------|--------------------------|
T |--------------------------|--------------------------|
A |-----------5--4--5--4--5--|--------------------------|
R |--3-----------------------|--6--6--6--6--5--5--4--4--|
  |
  |                             Gm
G2|--------------------------|--10---------(10)---------|
U |--------------------------|--11---------(11)---------|
I |--------------------------|--12---------(12)---------|
T |--------------------------|--------------------------|
A |--------------------------|--------------------------|
R |--------------------------|--------------------------|
                                            * Whammy bar dive down 1/4 step


G1|--------------------------|--------------------------|
U |--------------------------|--------------------------|
I |--------------------------|--------------------------|
T |--------------------------|--------------------------|
A |-----------5--4--5--4--5--|/-8--7--6--5--4--5--4--5--|
R |--3-----------------------|--------------------------|
  |
  |                             Bbm
G2|--------------------------|--13---------(13)---------|
U |--------------------------|--14---------(14)---------|
I |--------------------------|--15---------(15)---------|
T |--------------------------|--------------------------|
A |--------------------------|--------------------------|
R |--------------------------|--------------------------|
                                            * Whammy bar dive down 1/4 step



G1|--------------------------|--------------------------|
U |--------------------------|--------------------------|
I |--------------------------|--------------------------|
T |--------------------------|--------------------------|
A |-----------5--4--5--4--5--|--------------------------|
R |--3-----------------------|--6--6--6--6--5--5--4--4--|
  |
  |                             Gm
G2|--------------------------|--10---------(10)---------|
U |--------------------------|--11---------(11)---------|
I |--------------------------|--12---------(12)---------|
T |--------------------------|--------------------------|
A |--------------------------|--------------------------|
R |--------------------------|--------------------------|
                                            * Whammy bar dive down 1/4 step


G1|--------------------------|--------------------------|
U |--------------------------|--------------------------|
I |--------------------------|--------------------------|
T |--------5--4--5-----------|--------------------------|
A |-----------------5--4--5--|--8--8--7--7--6--6--5--5--|
R |--3-----------------------|--------------------------|
  |
  |                             Bbm
G2|--------------------------|--13---------(13)---------|
U |--------------------------|--14---------(14)---------|
I |--------------------------|--15---------(15)---------|
T |--------------------------|--------------------------|
A |--------------------------|--------------------------|
R |--------------------------|--------------------------|
                                            * Whammy bar dive down 1/4 step

Repeat from the beginning.


Last modified: 2013-01-10

VGJam Tabs Adventure Time: Hey Ice King! Why'd You Steal Our Garbage?! - "Forget it Lemongrab"
Tabs database last modified Tuesday, 01-Nov-2016 19:14:53 UTC.
Copyright © 1999 - 2016 VideoGameJam.com. All rights reserved.