VGJam Tabs Rayman Origins
Rayman Origins
"Land of the Livid Dead" - Guitar tab
Platform(s):Multi-platformNintendo 3DSPersonal Computer / MacintoshPlayStation 3PlayStation VitaWiiXbox 360
Composed by:Christophe Héral, Billy Martin
Tabbed by:Deezer
Last modified:2013-04-01
Date added:2013-03-28
Print it:Original file (.TXT)
#----------------------------------PLEASE NOTE---------------------------------#
#This file is the author's own work and represents their interpretation of the #
#song. You may only use this file for private study, scholarship, or research. #
#------------------------------------------------------------------------------#

Rayman Origins (Nintendo 3DS, PC, PlayStation 3, Vita, Wii, Xbox 360)
"Land of the Livid Dead"

Originally composed by: Christophe Héral, Billy Martin  
------------------------------------------------------------------------------
Tabbed by: Deezer (deezer AT videogamejam DOT com)
For http://www.videogamejam.com
------------------------------------------------------------------------------

This is the guitar part that starts at 1 minute and 40 seconds into the song.

Watch out for the wacky time signature! The changes from 4/4 to 2/4 and back
again are marked in the tab.

Legend:
  p = pull-off

Standard tuning: (low to high) EADGBe


  4/4

|-------------------------|---------------------|
|---------------2---------|------------------2--|
|------------2------------|---------------2-----|
|--4--4-4-4---------------|---------------------|
|-------------------------|---------------------|
|-------------------------|---------------------|

                                               2/4

--0--0-0-0--2------------|-------------------|------------|
---------------2---------|-------------------|------------|
-------------------------|-------------------|------------|
-------------------------|-------------------|------------|
-------------------------|-------------------|---------4--|
-------------------------|-------------------|------------|

 4/4

-------------------------|---------------------|
---------------2---------|------------------2--|
------------2------------|---------------2-----|
--4--4-4-4---------------|---------------------|
-------------------------|---------------------|
-------------------------|---------------------|

                                               2/4 

--0--0-0-0--2------------|-------------------|-------5--4--|
---------------2---------|-------------------|-------------|
-------------------------|-------------------|-------------|
-------------------------|-------------------|-------------|
-------------------------|-------------------|-------------|
-------------------------|-------------------|-------------|

 4/4

--2--2-2-2--0---------------|-------2----1----5--4--|
---------------2--2-2-2-----|-----------------------|
-------------------------2--|--4--------------------|
----------------------------|-----------------------|
----------------------------|-----------------------|
----------------------------|-----------------------|


--2--2-2-2--0---------------|-------5----5p4---------|
---------------2--2-2-2-----|------------------------|
-------------------------2--|--4---------------------|
----------------------------|------------------------|
----------------------------|------------------------|
----------------------------|------------------------|

                     2/4          4/4

-------------------|------------|-------------------------|
-------------------|------------|---------------2---------|
-------------------|------------|------------2------------|
-------------------|------------|--4--4-4-4---------------|
-------------------|---------4--|-------------------------|
-------------------|------------|-------------------------|



---------------------|--0--0-0-0--2------------|-------------------|
------------------2--|---------------2---------|-------------------|
---------------2-----|-------------------------|-------------------|
---------------------|-------------------------|-------------------|
---------------------|-------------------------|-------------------|
---------------------|-------------------------|-------------------|

 2/4          4/4

------------|-------------------------|---------------------|
------------|---------------2---------|------------------2--|
------------|------------2------------|---------------2-----|
------------|--4--4-4-4---------------|---------------------|
---------4--|-------------------------|---------------------|
------------|-------------------------|---------------------|

                                               2/4

--0--0-0-0--2------------|-------------------|-------5--4--|
---------------2---------|-------------------|-------------|
-------------------------|-------------------|-------------|
-------------------------|-------------------|-------------|
-------------------------|-------------------|-------------|
-------------------------|-------------------|-------------|

 4/4

--2--2-2-2--0---------------|-------2----1----5--4--|
---------------2--2-2-2-----|-----------------------|
-------------------------2--|--4--------------------|
----------------------------|-----------------------|
----------------------------|-----------------------|
----------------------------|-----------------------|


--2--2-2-2--0---------------|-------5----5p4---------|
---------------2--2-2-2-----|------------------------|
-------------------------2--|--4---------------------|
----------------------------|------------------------|
----------------------------|------------------------|
----------------------------|------------------------|

                     2/4
					 
-------------------|------------|
-------------------|------------|
-------------------|------------|
-------------------|------------|
-------------------|------------|
-------------------|------------|


History:
 2013-04-01 - Added time signatures.
 2013-03-28 - First draft.
 

VGJam Tabs Rayman Origins - "Land of the Livid Dead"
Tabs database last modified Tuesday, 01-Nov-2016 19:14:53 UTC.
Copyright © 1999 - 2016 VideoGameJam.com. All rights reserved.