VGJam Tabs Super Mario Land 2: 6 Golden Coins
Super Mario Land 2: 6 Golden Coins
"Space Zone stage music #2" - Guitar tab
Platform(s):Game Boy
Composed by:Kazumi Totaka
Tabbed by:Deezer
Last modified:2014-04-12
Date added:2014-04-12
Print it:Original file (.TXT)
#----------------------------------PLEASE NOTE--------------------------------#
#This file is the author's own work and represents their interpretation of the#
#song. You may only use this file for private study, scholarship, or research.#
#-----------------------------------------------------------------------------#

Super Mario Land 2: 6 Golden Coins (Game Boy)
"Space Zone stage music #2"

Originally composed by: Kazumi Totaka
------------------------------------------------------------------------------
Tabbed by: Deezer (deezer AT videogamejam DOT com)
For http://www.videogamejam.com
------------------------------------------------------------------------------


Standard tuning: (low to high) EADGBe


G1|--16---14---12---14-16----14---12---14---|
U |-----------------------------------------|
I |-----------------------------------------|
T |-----------------------------------------|
A |-----------------------------------------|
R |-----------------------------------------| x2

G1|--17---14---12---14-17----14---12---14---|
U |-----------------------------------------|
I |-----------------------------------------|
T |-----------------------------------------|
A |-----------------------------------------|
R |-----------------------------------------| x2

G1|--16---14---12---14-16----14---12---14---|
U |-----------------------------------------|
I |-----------------------------------------|
T |-----------------------------------------|
A |-----------------------------------------|
R |-----------------------------------------| x2

G1|--17---14---12---14-17----14---12---14---|
U |-----------------------------------------|
I |-----------------------------------------|
T |-----------------------------------------|
A |-----------------------------------------|
R |-----------------------------------------|

     * *  *  *  *  *
G1|--0-0-------24-24----------------|-----------------------|
U |------17-17----------------------|-----------------------|
I |---------------------------------|-----------------------|
T |---------------------------------|-----------------------|
A |---------------------------------|-----------------------|
R |---------------------------------|-----------------------|
  | (*These E notes are tabbed one octave lower than they sound in the game.)
  |
G2|---------------------------19----|--16-------------------|
U |---------------------------------|----------17-----------|
I |---------------------16----------|-----------------------|
T |---------------------------------|-----------------------|
A |---------------------------------|-----------------------|
R |---------------------------------|-----------------------|

G2|--------------------------|-----------------------|
U |-----------------17---19--|-----------------------|
I |------------18------------|--16------14-----------|
T |--------------------------|-----------------------|
A |--------------------------|-----------------------|
R |--------------------------|-----------------------|

G2|------------------19----|--16-------------------|
U |------------------------|----------17-----------|
I |------------16----------|-----------------------|
T |------------------------|-----------------------|
A |------------------------|-----------------------|
R |------------------------|-----------------------|

G2|-------------------------|-----------------------|------------|
U |-------------17----19----|-----------------------|------------|
I |-------18----------------|--16------14-----------|------------|
T |-------------------------|-----------------------|------------|
A |-------------------------|-----------------------|------------|
R |-------------------------|-----------------------|------------|

Repeat from the beginning.


Last modified: 2014-04-12

VGJam Tabs Super Mario Land 2: 6 Golden Coins - "Space Zone stage music #2"
Tabs database last modified Tuesday, 01-Nov-2016 19:14:53 UTC.
Copyright © 1999 - 2016 VideoGameJam.com. All rights reserved.