VGJam Tabs Who Framed Roger Rabbit?
Who Framed Roger Rabbit?
"City building theme" - Guitar tab
Platform(s):Nintendo Entertainment System
Tabbed by:Matt Ouellette
Last modified:2014-05-04
Date added:2014-07-21
Print it:Original file (.TXT)
Who Framed Roger Rabbit? (NES, 1988) "L.A. Building Theme"
Tabbed by: Matt Ouellette; Twitter: @King12String; Facebook.com/MattOuelletteBand; YouTube.com/MattOuellette88


Tuning: Standard (E, A, D, G, B, e)


||-------------8-----------------|--------------------------|--8--------------------|----------------------|
||------8---------10-------------|----------8-------9--8----|-----10----------------|----------------------|
||O--10---10-----------10-9-8~---|--7---10------10----------|-----------10-9-8~-----|-11-11-11-10--10--9---|
||O------------------------------|--------------------------|-----------------------|----------------------|
||-------------------------------|--------------------------|-----------------------|----------------------|
||-------------------------------|--------------------------|-----------------------|----------------------|

|-------------------------------|---------------------|----------------------------------------|
|----------8-------9-8----------|---------------------|--------9-8--------9-8--------8~--------|
|--7---10------10--------10--7--|-5-5-5-6-6-6-7-7-7---|--10-7-------10-7-------10-7------------|
|-------------------------------|---------------------|----------------------------------------|
|-------------------------------|---------------------|----------------------------------------|
|-------------------------------|---------------------|----------------------------------------|

|-----------8-------------------||
|----8---------10---------------||
|-10---10-----------10-9-8~----O||
|------------------------------O||
|-------------------------------||
|-------------------------------||

Repeat in loop from bar 1.
VGJam Tabs Who Framed Roger Rabbit? - "City building theme"
Tabs database last modified Tuesday, 01-Nov-2016 19:14:53 UTC.
Copyright © 1999 - 2016 VideoGameJam.com. All rights reserved.