VGJam Tabs WWF Attitude
WWF Attitude
"Menu theme" - Guitar tab
Platform(s):Multi-platformNintendo 64PlayStationDreamcast
Tabbed by:Dustin H.
Last modified:2014-05-08
Date added:2014-07-21
Print it:Original file (.TXT)
WWF Attitude Main Menu Theme


|-------------------------------------------|
|-------------------------------------------|
|-------------------------------------------|
|------5-5\4----------------5-5\4-----5--7--|
|--5-7-------5-0-5/7~--5--7-------5---5--7--|
|-----------------------------------0-3--5--|
PM             .

|-------------------------------------------|
|-------------------------------------------|
|-------------------------------------------|
|------5-5\4----------------5-5\4-----7--5--|
|--5-7-------5-0-5/7~--5--7-------5---7--5--|
|-----------------------------------0-5--3--|
PM           . .

|---------------------------------------------|
|---------------------------------------------|
|---------------------------------------------|
|------5-5\4-------5----------5-5\4-----5--7--|
|--5-7-------5-0-5---7~--5--7-------5---5--7--|
|-------------------------------------0-3--5--|
PM             .

|-------------------------------------------|
|-------------------------------------------|
|-------------------------------------------|
|------5-5\4----------------5-5\4-----7--5--|
|--5-7-------5-0-8p7~--5--7-------5---7--5--|
|-----------------------------------0-5--3--|

|-----------------------------------------------|
|-----------------------------------------------|
|------------3b-3------------------3--------3b--|
|----3-4-5-5------5-3--------3-4-5---5-3-5~-----|
|--5------------------5~---5--------------------|
|-----------------------------------------------|
PM   . . . .                 . . .

|-------------6b-6------------------6--------6b--|
|-----6-7-8-8------8---6~-----6-7-8---8-6-8~-----|
|--/7----------------7------7--------------------|
|------------------------------------------------|
|------------------------------------------------|
|------------------------------------------------|

|--------------8b~----------------------------------|
|----8-9-10-10-------8-10~-10~----------------------|
|--9---------------9-----------x-9-x-7-x-5~---------|
|-------------------------------------------7-5-7~--|
|---------------------------------------------------|
|---------------------------------------------------|

|-----------------------------------------|
|--8h10~--8~------------------------------|
|-------------7~\5/7~\5/7/9~--------------|
|------------------------------------/7\--|
|--------------------------------/7~------|
|-----------------------------------------|


Legend
========
PM   | Palm Muting
~    | Hold Note/Vibrato
x    | Mute Note
/    | Slide Up
\    | Slide Down
b    | Bend
h    | Hammer-On
p    | Pull-Off


-- DH
========================================================
VGJam Tabs WWF Attitude - "Menu theme"
Tabs database last modified Tuesday, 01-Nov-2016 19:14:53 UTC.
Copyright © 1999 - 2016 VideoGameJam.com. All rights reserved.