VGJam Tabs Animal Crossing
Animal Crossing
"Sea shanty" - Guitar tab
Platform(s):GameCube
Composed by:Kenta Nagata, Toru Minegishi, Shinobu Tanaka
Tabbed by:Deezer
Last modified:2002-10-28
Print it:Original file (.TXT)
#----------------------------------PLEASE NOTE---------------------------------#
#This file is the author's own work and represents their interpretation of the #
#song. You may only use this file for private study, scholarship, or research. #
#------------------------------------------------------------------------------#


Animal Crossing (Nintendo GameCube)
"Sea Shanty"

Originally composed by: ?
------------------------------------------------------------------------------
Tabbed by: Deezer (deezer@kontek.net)
For http://www.kontek.net/vgjam/
------------------------------------------------------------------------------

Standard tuning: (low to high) EADGBe


------------------------------------------------------
--------------12--------------------------------------
----------11--------11------------11--13----11--------
--13--13------------------13--14----------------------
------------------------------------------------------
------------------------------------------------------

----------------------------------------------------
----------------------------------------------------
----------------------------------------------------
------------------------------11--------------------
--14--14--14----14--14--14--------14--13--14--------
----------------------------------------------------

----------------------11----11--------------------------
------------------12------------14--12--14----12--------
--------------11----------------------------------------
--13--13--13--------------------------------------------
--------------------------------------------------------
--------------------------------------------------------

--------------------------------------------------
--------------------------------------------------
--------------------------------------------------
------------------------------11------------------
--14--14--14----14--14--14--------14--13----14----
--------------------------------------------------

[Random witty quote from Kapp'n.]

----------------------11----11--------------------------
------------------12------------14--12--14----12--------
--------------11----------------------------------------
--13--13--13--------------------------------------------
--------------------------------------------------------
--------------------------------------------------------

--------------------------------------------------------
--------------------------------------------------------
--------------------------------------------------------
------------------------------11------------------------
--14--14--14----14--14--14--------14--13----14----------
--------------------------------------------------------

---------------------
---------------------
---------------------
-11------------------
-----14--13----14----
---------------------

Last modified: 10/28/2002


VGJam Tabs Animal Crossing - "Sea shanty"
Tabs database last modified Saturday, 12-Apr-2014 00:15:37 CDT.
Copyright © 1999 - 2014 VideoGameJam.com. All rights reserved.