VGJam Tabs Silent Hill 3
Silent Hill 3
"Please Love Me... Once More" - Guitar tab
Platform(s):PlayStation 2
Composed by:Akira Yamaoka
Soundtrack:Silent Hill 3 Original Soundtracks [KOLA-038] (track 08)
Tabbed by:Deezer
Last modified:2005-04-03
Print it:Original file (.TXT)
#----------------------------------PLEASE NOTE---------------------------------#
#This file is the author's own work and represents their interpretation of the #
#song. You may only use this file for private study, scholarship, or research. #
#------------------------------------------------------------------------------#

Silent Hill 3 (PlayStation 2)
"Please Love Me... Once More"

Originally composed by: Akira Yamaoka
------------------------------------------------------------------------------
Tabbed by: Deezer (deezer AT videogamejam DOT com)
For http://www.videogamejam.com
------------------------------------------------------------------------------

Standard tuning: (low to high) EADGBe

Capo on first fret ("0" in tab is capoed fret 1).
If you don't have a capo, you can tune all strings up one half step.


|-----------------------0---------|
|-----3---2---0-------3---3-2-0---|
|---------------------------------|
|---0---------------0-------------|
|-2---------------2---------------|
|---------------------------------| x4

|-----0-------0-------0-2---------|
|---------3---------------3-2-0---|
|---------------------------------|
|---2---------------2-------------|
|-2---------------2---------------|
|---------------------------------| x2

Then repeat it all.


Last revised: 04/03/2005

VGJam Tabs Silent Hill 3 - "Please Love Me... Once More"
Tabs database last modified Tuesday, 01-Nov-2016 19:14:53 UTC.
Copyright © 1999 - 2016 VideoGameJam.com. All rights reserved.