VGJam Tabs Double Dragon Neon
Double Dragon Neon
"Mixtape - Lightning" - Guitar tab
Platform(s):Multi-platformPersonal Computer / MacintoshPlayStation 3Xbox 360
Composed by:Jake Kaufman
Tabbed by:Deezer
Last modified:2015-05-10
Date added:2015-05-10
Print it:Original file (.TXT)
#----------------------------------PLEASE NOTE--------------------------------#
#This file is the author's own work and represents their interpretation of the#
#song. You may only use this file for private study, scholarship, or research.#
#-----------------------------------------------------------------------------#

Double Dragon Neon (Multi-platform)
"Mixtape - Lightning"

Originally composed by: Jake Kaufman
------------------------------------------------------------------------------
Tabbed by: Deezer (deezer AT videogamejam DOT com)
For http://www.videogamejam.com
------------------------------------------------------------------------------

You can hear this track, and the rest of the soundtrack, for free at:
 http://virt.bandcamp.com/album/double-dragon-neon

Legend:
 x = muted string
 h = hammer-on
 
Dropped D tuning: DADGBe (low to high)


Crank up the distortion! I like to use all downstrokes and a light palm mute
on the open strings.

e|---------------------------------|---------------------------------|
B|---------------------------------|---------------------------------|
G|---------------------------------|---------------------------------|
D|-x-0-0-0-0-2---0-0-0-0-2---0-5---|---0-0-0-0-2---0-8---0-7---0-5---|
A|-x-0-0-0-0-2---0-0-0-0-2---0-5---|---0-0-0-0-2---0-8---0-7---0-5---|
D|-x-0-0-0-0-2---0-0-0-0-2---0-5---|---0-0-0-0-2---0-8---0-7---0-5---|

e|---------------------------------|---------------------------------|
B|---------------------------------|---------------------------------|
G|---------------------------------|---------------------------------|
D|---0-0-0-0-2---0-0-0-0-2---0-5---|---0-0-0-0-2---0-8---0-7---0-5h7-|
A|---0-0-0-0-2---0-0-0-0-2---0-5---|---0-0-0-0-2---0-8---0-7---0-5h7-|
D|---0-0-0-0-2---0-0-0-0-2---0-5---|---0-0-0-0-2---0-8---0-7---0-5h7-|

Repeat from the beginning.


Last modified: 2015-05-10

VGJam Tabs Double Dragon Neon - "Mixtape - Lightning"
Tabs database last modified Tuesday, 01-Nov-2016 19:14:53 UTC.
Copyright © 1999 - 2016 VideoGameJam.com. All rights reserved.