VGJam Tabs The Legend of Zelda: Link's Awakening
The Legend of Zelda: Link's Awakening
"Sword Search" - Guitar tab
Platform(s):Game Boy
Tabbed by:Wig
Last modified:2015-04-27
Date added:2015-05-10
Print it:Original file (.TXT)
SYSTEM: Game Boy
GAME: The Legend of Zelda: Link's Awakening
SONG: Sword Search
YEAR: 1993

Standard tuning


110 bpm (note: spacing may be off, listen to track for rhythm)


|------2--------------------|------------5--------------|
|-0-----------------2--3--5-|----5----------------------|
|-----------4----4----------|--------2------------------|
|---------------------------|---------------------------|
|---------------------------|---------------------------|
|---------------------------|---------------------------|

|---------------------------|------------2--------------|
|------3------------------2-|----2----------------------|
|-------------------2--4----|---------------------------|
|-----------5----5----------|--------4------------------|
|---------------------------|---------------------------|
|---------------------------|---------------------------|

|-------------5--7-----5----|-5-------------------------|
|------7---8--------------8-|------8--7----5------------|
|---------------------------|-----------------7----7----|
|---------------------------|---------------------------|
|---------------------------|---------------------------|
|---------------------------|---------------------------|

|---------6--8--10----------|------15-----14---18-------|
|------6--------------------|---------------------------|
|--------------------17--15-|-17------------------------|
|---------------------------|---------------------------|
|---------------------------|---------------------------|
|---------------------------|---------------------------|

|------2-----------14-------|-17------------------------|
|-0--------------------12---|---------------------------|
|-----------4---------------|---------------------------|
|---------------------------|-------------------7-------|
|---------------------------|---------7-9----10---------|
|---------------------------|----9-10-------------------|

|---------------------------|---------------------------|
|---------------------------|---------------------------|
|---------------------------|---------------------------|
|---------------------------|----------2--4-------------|
|------5---------------2--4-|------5--------------------|
|-----------3----3--5-------|---------------------------|

|---------------------------|-----5------17------17-----|
|----------------------3--5-|----------------15---------|
|-4--------------4--5-------|-2-------------------------|
|---------------------------|---------------------------|
|---------------------------|---------------------------|
|---------------------------|---------------------------|

|-18------------------------|------3--------------8-----|
|---------------------------|----------------7----------|
|-------------5--7-----5--3-|-5-------------------------|
|----------8----------------|---------------------------|
|-------8-------------------|---------------------------|
|---------------------------|---------------------------|

VGJam Tabs The Legend of Zelda: Link's Awakening - "Sword Search"
Tabs database last modified Tuesday, 01-Nov-2016 19:14:53 UTC.
Copyright © 1999 - 2016 VideoGameJam.com. All rights reserved.