VGJam Tabs Sonic CD
Sonic CD
"Stardust Speedway - Present (US version)" - Guitar tab
Platform(s):Sega CD
Tabbed by:Drew I.
Last modified:2016-05-11
Date added:2016-05-11
Print it:Original file (.TXT)
Game: Sonic the Hedgehog CD
Platform: Sega CD
Track: Stardust Speedway - Present (United States Version)
Composers: Spencer Nilsen, David Young, and Mark Crew 

Here's that nifty guitar riff from the intro of Stardust Speedway. Enjoy!

e|----------------------------------------------------------|
B|----------------------------------------------8~~---------|
G|--6-----7-----9----------------6-----7-----9--------------|
D|-----7-----7-----7--7--7----7-----7-----7--------------7--|
A|----------------------------------------------------------|
E|----------------------------------------------------------|

e|----------------------------------------------------------|
B|----------------------------------------------------------|
G|--6-----7-----9----------------6-----7-----9--------------|
D|-----7-----7-----7--7--7----7-----7-----7-----5~~------7--|
A|----------------------------------------------------------|
E|----------------------------------------------------------|

e|----------------------------------------------------------|
B|----------------------------------------------8~~---------|
G|--6-----7-----9----------------6-----7-----9--------------|
D|-----7-----7-----7--7--7----7-----7-----7--------------7--|
A|----------------------------------------------------------|
E|----------------------------------------------------------|

e|----------------------------------||
B|----------------------------------||
G|--6-----7-----9-------------------||
D|-----7-----7-----7--7--7----5--7--||
A|----------------------------------||
E|----------------------------------||


Got a correction? Send to Drew at d_r_e_w_o_i_n_m_a_n_@gmail.com (remove all underscores!).

Drafted 4/17/2016.

VGJam Tabs Sonic CD - "Stardust Speedway - Present (US version)"
Tabs database last modified Tuesday, 01-Nov-2016 19:14:53 UTC.
Copyright © 1999 - 2016 VideoGameJam.com. All rights reserved.