VGJam Tabs Yoshi's Woolly World
Yoshi's Woolly World
"Craft Island" - Guitar tab
Platform(s):Wii U
Tabbed by:Deezer
Last modified:2016-05-21
Date added:2016-05-21
Print it:Original file (.TXT)
#----------------------------------PLEASE NOTE--------------------------------#
#This file is the author's own work and represents their interpretation of the#
#song. You may only use this file for private study, scholarship, or research.#
#-----------------------------------------------------------------------------#

Yoshi's Woolly World (Wii U)
"Craft Island"

Originally composed by: Tomoya Tomita, Misaki Asada
------------------------------------------------------------------------------
Tabbed by: Deezer (deezer AT videogamejam DOT com)
For http://www.videogamejam.com
------------------------------------------------------------------------------

Standard tuning: EADGBe (low to high)

Legend:
  / = slide up
  \ = slide down
  p = pull-off
 <> = natural harmonic


 Here's the acoustic guitar part starting at about the 18 second mark.

|------------------------|-------------------------|-------------------|
|--------5--4----5-------|-------------------------|-------------------|
|-----4---------------6--|---------2--2-/-4--6--4--|-------------------|
|--6---------------------|-------------------------|-------------------|
|------------------------|-------------------------|-------------------|
|------------------------|-------------------------|-------------------|

-------------------|--------------------------|-------------------------|
-------------------|--------5--4--------------|-------------------------|
-------------------|-----4----------4----4/6--|---------2--2-/-4--6--4--|
-------------------|--6-----------------------|-------------------------|
-------------------|--------------------------|-------------------------|
-------------------|--------------------------|-------------------------|

-------------------|-------------------------|------------------------|
-------------------|-------------------4--5--|------------------------|
-------------------|--------------4/6--------|-----------------4-p-3--|
-------------------|-------------------------|--------------6---------|
-------------------|-------------------------|------------------------|
-------------------|-------------------------|------------------------|

---------------------|-------------------------|----------------------0--|
---------------------|------------5----4-------|--------------2--4/5-----|
---------------------|--2--4-/-6--6----4-------|-------------------------|
---------4-----------|----------------------6--|-------------------------|
---------------------|-------------------------|-------------------------|
---------------------|-------------------------|-------------------------|

-------------------4--2--|---------------------|-------5--------------7--|
----------------------4--|---------2-----------|------------5---------5--|
--------------5/6--------|---------------------|--5/6------------6-------|
-------------------------|---------------------|-------------------------|
-------------------------|---------------------|-------------------------|
-------------------------|---------------------|-------------------------|

----------------------4--|--------------5-p-4-----|------------------------|
-------------------5--5--|---------------------7--|--5-------5/7-----------|
--------------3/4--------|------------------------|-------6----------------|
-------------------------|------------------------|------------------------|
-------------------------|------------------------|------------------------|
-------------------------|------------------------|------------------------|

--4--5-/-7--4---------7--|--7-\-5--4--2-------------4--|------------5--7--\--|
--5--7-/-9--5------------|------------0----------5--5--|------------7--9--\--|
----------------------8--|--8-\-6--4--------2/4--------|---------------------|
-------------------------|-----------------------------|---------------------|
-------------------------|-----------------------------|---------------------|
-------------------------|-----------------------------|---------------------|

                                  let ring...
--4-------------------|------------0------------|-------------------|
--5-------------------|-------5---------4----5--|-------------------|
--6----6--------------|--4/6--------------------|-------------------|
----------------------|-------------------------|-------------------|
---------<4>----------|-------------------------|-------------------|
---------<4>----------|-------------------------|-------------------|


Last modified: 2016-05-21

VGJam Tabs Yoshi's Woolly World - "Craft Island"
Tabs database last modified Tuesday, 01-Nov-2016 19:14:53 UTC.
Copyright © 1999 - 2016 VideoGameJam.com. All rights reserved.