VGJam Tabs The Legend of Zelda: Link's Awakening
The Legend of Zelda: Link's Awakening
"Mabe Village" - Guitar tab
Platform(s):Game Boy
Composed by:Koji Kondo
Tabbed by:Wig
Last modified:2016-10-18
Date added:2016-10-21
Print it:Original file (.TXT)
SYSTEM: Nintendo Game Boy
SONG: "Mabe Village theme"
FROM: The Legend of Zelda: Link's Awakening
YEAR: 1993


Standard Tuning (E, A, D, G, B, E)

99 bpm


LEAD:

|------------------------------|------------------------------|---------17--------15--17--15-|
|-15---------------------12-13-|-15-15------------------12-13-|-12--15-----------------------|
|-------12----14---------------|-------12-12-14---------------|------------------------------|
|------------------------------|------------------------------|------------------------------|
|------------------------------|------------------------------|------------------------------|
|------------------------------|------------------------------|------------------------------|

|------------------------------|-12---------------------------|-12---------------------------|
|-15--13-12-----------12-13-15-|------------------------------|----15-15---------------------|
|-----------14-----------------|-------12----11------------14-|----------11-11-12------12-11-|
|------------------------------|------------------------------|------------------------------|
|------------------------------|------------------------------|------------------------------|
|------------------------------|------------------------------|------------------------------|

|-------7----------------------|----10-----10-----10-----10--|-----22------22------22------22--|
|----8----------------10--8----|-----------------------------|---------------------------------|
|-9--------------------------8-|-7------7------7------7------|-19------19------19------19------|
|------------------------------|-----------------------------|---------------------------------|
|------------------------------|-----------------------------|---------------------------------|
|------------------------------|-----------------------------|---------------------------------|


RHYTHM: (all eighth notes except for last 2 measures)

|------10--------10--------12--------12-|------14--------14--------12--------12-|
|---------------------------------------|---------------------------------------|
|-12--------12--------12--------12------|-12--------12--------12--------12------|
|---------------------------------------|---------------------------------------|
|---------------------------------------|---------------------------------------|
|---------------------------------------|---------------------------------------|

|------10--------10--------11--------11-|------12--------12---14----------------|
|---------------------------------------|-10--------10--------15----------------|
|-12--------12--------12--------12------|---------------------------------------|
|---------------------------------------|--------------------------12---14---12-|
|---------------------------------------|---------------------------------------|
|---------------------------------------|---------------------------------------|

|---------------------------------------|-----------------------------------|-------------------------------|
|--------------------------10--------10-|-----10-------10-------12-------12-|-----5-------5-------4---------|
|------12--------12---------------------|-------------------9--------9------|-------------------------7---5-|
|-10--------10--------10--------10------|-9--------9------------------------|-7-------7-------7-------------|
|---------------------------------------|-----------------------------------|-------------------------------|
|---------------------------------------|-----------------------------------|-------------------------------|

|------------------------------|------------------------------|
|------------------------------|------------------------------|
|-7-------------5--------------|-4--------------------------7-|
|------------------------------|---------------7--------------|
|------------------------------|------------------------------|
|------------------------------|------------------------------|
VGJam Tabs The Legend of Zelda: Link's Awakening - "Mabe Village"
Tabs database last modified Tuesday, 01-Nov-2016 19:14:53 UTC.
Copyright © 1999 - 2016 VideoGameJam.com. All rights reserved.