VGJam Tabs Super Mario World
Super Mario World
"Vanilla Dome" - Guitar, Bass tab
Platform(s):Super NES
Composed by:Koji Kondo
Tabbed by:Deezer
Last modified:2016-10-21
Date added:2016-10-21
Print it:Original file (.TXT)
#----------------------------------PLEASE NOTE--------------------------------#
#This file is the author's own work and represents their interpretation of the#
#song. You may only use this file for private study, scholarship, or research.#
#-----------------------------------------------------------------------------#

Super Mario World (Super NES)
"Vanilla Dome"

Originally composed by: Koji Kondo
------------------------------------------------------------------------------
Tabbed by: Deezer (deezer AT videogamejam DOT com)
For http://www.videogamejam.com
------------------------------------------------------------------------------

Guitar - Standard tuning: EADGBe (low to high)
Bass - Standard tuning: EADG (low to high)

*Guitar is tabbed one octave lower. 


Intro:
======

G |-----------------------------------------------------------------|
U |-----------------------------------------------------------------|
I |-----------------------------------------------------------------|
T |-----------------------------------------------------------------|
A |-----------------------------------------------------------------|
R |-----------------------------------------------------------------|
  |
B |-----------------------------------------------------------------|
A |--0-----------------------0---0----------------------------------|
S |-----------------------------------------------------------------|
S |-----------------------------------------------------------------|


G |-----------------------------------------------------------------|
U |-----------------------------------------------------------------|
I |-----------------------------------------------------------------|
T |-----------------------------------------------------------------|
A |-----------------------------------------------------------------|
R |-----------------------------------------------------------------|
  |
B |-----------------------------------------------------------------|
A |--3-----------------------3---3----------------------------------|
S |-----------------------------------------------------------------|
S |-----------------------------------------------------------------|


Main loop:
==========

G |--20----------20---------------------------------20--------------|
U |----19------19---------------------------------------------------|
I |------17--17-----------------------------------------------------|
T |--------16-------------------------------------------------------|
A |-----------------------------------------------------------------|
R |-----------------------------------------------------------------|
  |
B |-----------------------------------------------------------------|
A |--0-----------------------0---0----------------------------------|
S |-----------------------------------------------------------------|
S |-----------------------------------------------------------------|


G |--19----------19---------------------------------19--------------|
U |----18------18---------------------------------------------------|
I |------16--16-----------------------------------------------------|
T |--------15-------------------------------------------------------|
A |-----------------------------------------------------------------|
R |-----------------------------------------------------------------|
  |
B |-----------------------------------------------------------------|
A |--3-----------------------3---3----------------------------------|
S |-----------------------------------------------------------------|
S |-----------------------------------------------------------------|


G |--20----------20---------------------------------20--------------|
U |----19------19---------------------------------------------------|
I |------17--17-----------------------------------------------------|
T |--------16-------------------------------------------------------|
A |-----------------------------------------------------------------|
R |-----------------------------------------------------------------|
  |
B |-----------------------------------------------------------------|
A |--0-----------------------0---0----------------------------------|
S |-----------------------------------------------------------------|
S |-----------------------------------------------------------------|


G |--19----------19---------------------------------19--------------|
U |----18------18---------------------------------------------------|
I |------16--16-----------------------------------------------------|
T |--------15-------------------------------------------------------|
A |-----------------------------------------------------------------|
R |-----------------------------------------------------------------|
  |
B |-----------------------------------------------------------------|
A |--3-----------------------3---3----------------------------------|
S |-----------------------------------------------------------------|
S |-----------------------------------------------------------------|


G |--18----------18-------------------------------------------------|
U |----17------17---------------------------------------------------|
I |------15--15-----------------------------------------------------|
T |--------14-------------------------------------------------------|
A |-----------------------------------------------------------------|
R |-----------------------------------------------------------------|
  |
B |--1-----------------------1---1----------------------------------|
A |-----------------------------------------------------------------|
S |-----------------------------------------------------------------|
S |-----------------------------------------------------------------|


G |--17----------17-------------------------------------------------|
U |----16------16---------------------------------------------------|
I |------14--14-----------------------------------------------------|
T |--------13-------------------------------------------------------|
A |-----------------------------------------------------------------|
R |-----------------------------------------------------------------|
  |
B |-----------------------------------------------------------------|
A |-----------------------------------------------------------------|
S |--4-----------------------4---4----------------------------------|
S |-----------------------------------------------------------------|

Repeat main loop forever.


Last modified: 2016-10-20

VGJam Tabs Super Mario World - "Vanilla Dome"
Tabs database last modified Tuesday, 01-Nov-2016 19:14:53 UTC.
Copyright © 1999 - 2016 VideoGameJam.com. All rights reserved.