VGJam Tabs F355 Challenge
F355 Challenge
"Barren Land (Name Entry Screen)" - Guitar tab
Platform(s):Dreamcast
Tabbed by:Lee Thomas Robson
Last modified:2003-02-24
Print it:Original file (.TXT)
F355 Challenge - DREAMCAST
Tune: Barren Land (Name Entry Screen)
Tabbed By: Lee Thomas Robson The_Axis@gmx.co.uk 14/02/03

      B                               E
e|------------------------------------------------------------|
b|------------15/17~------------15-17-15-14-------------------|
g|--------14--------------------------------14----------------|
d|-12/16---------------------------------------14~------------|
a|------------------------------------------------------------|
e|------------------------------------------------------------|
      B                               E
e|---------------------------------------------------------------|
b|------------15/17~------------15-17-15-14-15-15/17~------------|
g|--------14-----------------------------------------------------|
d|-12/16---------------------------------------------------------|
a|---------------------------------------------------------------|
e|---------------------------------------------------------------|
    G                          A 
e|---------------------------------------------|
b|-17---(19)~-----------14-15-15/17------------|
g|-slow bend ----------------------------------|
d|---------------------------------------------|
a|---------------------------------------------|
e|---------------------------------------------|
     B
e|------------------|----------|----------|----------|----------|-------------|
b|------------------|----------|----------|----------|----------|-------------|
g|------------------|----------|----------|----------|-11----11-|-14-11-14/16-|
d|------------------|----------|-12----12-|-14-12-14-|----14----|-------------|
a|---------12----12-|-14-12-14-|----14----|----------|----------|-------------|
e|-/14--14----14----|----------|----------|----------|----------|-------------|
     E                                  slight bend
e|--------------------------------------*-------|
b|-----15-17----15-17(19)(17)p15-17----15-------|
g|-/16-------16---------------------16----16----|
d|----------------------------------------------|
a|----------------------------------------------|
e|----------------------------------------------|
   B                               E
e|--------7------7--------------------------------------------|
b|----------10-7---10--------------9-9-7---7------------------|
g|-9(11)--------------9(11)(9)p7---9-9-7---7--x-9-9-----------|
d|-------------------------------9-------9----x-9-9-7---7---7-|
a|----------------------------------------------------9---9---|
e|------------------------------------------------------------|
    B                                          E
e|----------------------------------12h13p12--12h13p12-12h13p12-12h13p12--12-|
b|-----12-------15----17-15-17(19)----------15--------15-------15-------15---|
g|--------/16------16--------------------------------------------------------|
d|-/16-----------------------------------------------------------------------|
a|---------------------------------------------------------------------------|
e|---------------------------------------------------------------------------|
                                G
e|--------------------------17-----------------------------17------------|
b|-------15-17----15-17(19)----17(19)17(19)~--\----17-(19)----17(19)~----|
g|-14/16-------16--------------------------------------------------------|
d|-----------------------------------------------------------------------|
a|-----------------------------------------------------------------------|
e|-----------------------------------------------------------------------|
    A                                         B
e|--------------17-(19)-17~---14-17p14-17p14-17(19)~---(19)(19)(19)(19)(19)-|
b|-17(19)(17)15-------------------------------------------------------------|
g|--------------------------------------------------------------------------|
d|--------------------------------------------------------------------------|
a|--------------------------------------------------------------------------|
e|--------------------------------------------------------------------------|
    E                                           B
e|-(19)(17)-(19)(17)-(19)(17)-(19)(17)-(19)~--\---|
b|------------------------------------------------|
g|------------------------------------------------|
d|------------------------------------------------|
a|------------------------------------------------|
e|------------------------------------------------|

Note: Chord times are approximate
 Repeat from the beginning.

VGJam Tabs F355 Challenge - "Barren Land (Name Entry Screen)"
Tabs database last modified Tuesday, 01-Nov-2016 19:14:53 UTC.
Copyright © 1999 - 2016 VideoGameJam.com. All rights reserved.