VGJam Tabs Marvel vs. Capcom 2: New Age of Heroes
Marvel vs. Capcom 2: New Age of Heroes
"Title" - Guitar tab
Platform(s):Dreamcast
Tabbed by:Wriggler
Last modified:2002-11-17
Print it:Original file (.TXT)
Hear it:MIDI file
Game- Marvel Vs Capcom 2: New Age of Heroes
System- Sega Dreamcast
Song- Main Title Theme
Originally Composed by- Yuko Takehara and  Masato Kouda
Tabbed By- Wriggler

These are just the main parts...make sure to keep everything fluid. listen to the midi for time

intro bass line-
G------------------------------------------------------7-8-10-12--
D-------------------------------------------------8-10------------
A-8-10---13-10---8-10---8-5---8-10---13-10---8-10-----------------

lead part 1
G-----------------------------------------------------------5--5--55/-
D-8-7-5-7-8-8-7-5-7--3-----------3--5---8-7-5-7-8-8-7-5-7---3--3--33/-
A----------------------5--0h3h5---------------------------------------
alternate picking may help

lead part 2
G-10--9-9-7--9/7-7-5--6--7---10--9-9-7--/9-7--9--10---10--9-9-7--9/7-7-5-5h7p5/2----------------
D--------------------------------------------------------------------------------2-0-2-0-2-2--3-

lead part 3
e--------------------------------------10--13-15p10h15p10h15p10h15p10-10p8p7---------------------
B-----------------------------------------------------------------------------8~---------7-8-10--
G---------3p0--7--5-----5 / 2 \ 8--7~--------------------------------------------6h7h9-9---------
D-2--3--5-----------7h8--------------------------------------------------------------------------

you can also play the high trill part as
e-15-10p8---
B---------8-    speed pick the 15 for the whole time you'd do the trill above

ending (clean guitar)
E-2~~~~~-------------------------
B-3~~~~~-------------------------
G-0~~~~~-------------------------
D-4~~~~~--4h5 / 7 \ 5~~----------
A--------------------------------
E-------------------0h3 / 5\ 3~~-

the end. this is pretty accurate, you just need to get the right groove going..which numbers on a screen
can't give  unfortunately. good luck finding it! 

-Wriggler 

VGJam Tabs Marvel vs. Capcom 2: New Age of Heroes - "Title"
Tabs database last modified Tuesday, 01-Nov-2016 19:14:53 UTC.
Copyright © 1999 - 2016 VideoGameJam.com. All rights reserved.