VGJam Tabs Quake 3 Arena
Quake 3 Arena
"Track 9" - Guitar tab
Platform(s):Dreamcast
Tabbed by:The_Axis
Last modified:2001-03-21
Print it:Original file (.TXT)
Game: Quake 3 Arena
Format: Dreamcast
Title: Track 9
Composers: id Software?

Tuning - (High to low) X,X,G,D,A,E (X's are unused strings)  

Key: X's = Left-hand mutes, 
     P.M = Palm mutes,
     p = Pull-off,
     / = Downward slide

Intro:

           [Section A]                  [Section B]
P.M------------    ------------  X5                     X1
G|---------------------------------|-6---6--6--6-6---6--6-|
D|-------------8---------------10--|-6---6--6--6-6---6--6-|
A|-------------8---------------10--|-4---4--4--4-4---4--4-|
E|-55-5-5-555556---55-5-5-555558---|----------------------|

| Section A X1 | Section B X1 |

0.28
                        [Section C]                        X4
G|-5--5-----5--5--------------------5--5-----5--5---X-X-6---6-|
D|-5--5-----5--5--------------------5--5-----5--5---X-X-6---6-|
A|-3--3-----3--3---------4p3p0-3/4--3--3-----3--3---X-X-4---4-|
E|-----------------4p3p0--------------------------------------|

                        [Section D]           X4
E|-500-300-500-800-10'0-80-500-300-500-200-30-40-|

                                            X2
G|-6----4--6--6--7--4--6----6--6-6--7--9--11-/-|
D|-6----4--6--6--7--4--6----6--6-6--7--9--11-/-|
A|-4----2--4--4--5--2--4----4--4-4--5--7--9--/-|
E|---------------------------------------------|

| Section A+B X4 | Section D X1 | Section B X1 | Section D X1 |

| Section B X1   | Section D X4 | Section A+B X2 | Section A X4  |
                                                 | Begin to fade |

VGJam Tabs Quake 3 Arena - "Track 9"
Tabs database last modified Tuesday, 01-Nov-2016 19:14:53 UTC.
Copyright © 1999 - 2016 VideoGameJam.com. All rights reserved.