VGJam Tabs Resident Evil - CODE: Veronica
Resident Evil - CODE: Veronica
"Berceuse" - Guitar tab
Platform(s):Dreamcast
Tabbed by:Tyles
Last modified:2002-06-04
Print it:Original file (.TXT)
Song:  Berceuse
From:  Resident Evil CODE: Veronica (X)
Transcribed by:  Tyles  

Tuning: Standard (lowest to highest) 

Key: unsure of, the pattern is of the E Aeolian mode, so probably E Minor.

Notes: This is transcribed for the guitar, this version is the main notes 
in the song. It is played along tothe vocals of Alexia. [I don't know the
name of the real vocalist..] I don't wanna do the piano instrumental of it
because
A) it seems too hard
B) piano chords on the guitar is a bitch to play

e|------------------------------------------|
B|-----12-------13--------12--10---8--7--8--|
G|----------9--------11---------------------|
D|--9---------------------------------------|
A|------------------------------------------|
E|------------------------------------------|

"There was a friendly, but naive king.."


e|-------------------------------|
B|-----10------------------------|
G|---------11--12--11--9--11--7--|
D|--9----------------------------|
A|-------------------------------|
E|-------------------------------|

"..Who wed a very nasty queen.."


e|--10----------------------------------|
B|------8----------13-------------------|
G|---------9--11----------9--8--11---9--|
D|--------------------------------------|
A|--------------------------------------|
E|--------------------------------------|

"..The king was loved but, the queen was feared."

"'Til one day strolling in his court.."
"..An arrow pierced the kind king's heart.."
"..He lost his life, and, his lady love.."

VGJam Tabs Resident Evil - CODE: Veronica - "Berceuse"
Tabs database last modified Tuesday, 01-Nov-2016 19:14:53 UTC.
Copyright © 1999 - 2016 VideoGameJam.com. All rights reserved.