VGJam Tabs Sonic Adventure
Sonic Adventure
"Open Your Heart" - Guitar tab
Platform(s):Dreamcast
Composed by:Jun Senoue, Fumie Kumatani, Kenichi Tokoi, Masaru Setsumaru
Tabbed by:Omar
Last modified:2000-07-07
Print it:Original file (.TXT)
Hear it:MIDI file
Sonic Adventure Main Theme- Open Your Heart

Tabbed by Omar (omaralex@avantel.net)
Warning: This song is pretty damn hard to play right, as there's lots 
of ad-libbing not transcribed here. Many of the riffs have harmonics 
added in places, especially the main riff.

Intro riff:

h- hammer on
p- pull off
/- slide
>- bend up
<- let down bend

Palm Mute, fast
E|---------------------------------------------------------------------------|
B|---------------------------------------------------------------------------|
G|---------------------------------------------------------------------------|
D|----------------------------------------------7--7-------------------------|
A|---5--3------------3--5--3-------------3------7--7-------------------------|
E|----------5--3--5-------------5--3--5---------5--5-------------------------|

Then crank up that distortion!

Main Riff (Varied slightly each time)
     A5 (used over whole riff)
E|---------------------------------------------------------------------------|
B|---------------------------------------------------------------------------|
G|---------------------------------------------------------------------------|
D|---------------------------------------------------------------------------|
A|------5--3-----5>








VGJam Tabs Sonic Adventure - "Open Your Heart"
Tabs database last modified Tuesday, 01-Nov-2016 19:14:53 UTC.
Copyright © 1999 - 2016 VideoGameJam.com. All rights reserved.