VGJam Tabs Sonic Adventure
Sonic Adventure
"Windy and Ripply" - Guitar tab
Platform(s):Dreamcast
Composed by:Jun Senoue, Fumie Kumatani, Kenichi Tokoi, Masaru Setsumaru
Soundtrack:Sonic Adventure Original Sound Track [MJCA-00034] (track D1-06)
Tabbed by:Tansunn
Last modified:2004-12-04
Print it:Original file (.TXT)
Hear it:MIDI file
#-----------------------------------------------------------------------------#
#-- File created with Instab - http://www.pconline.com/~smcarey/instab.html --#
#-----------------------------------------------------------------------------#

Author/Artist: Jun Senoue
Title: Windy & Ripply
Album: Sonic Adventure
Transcribed by: Tansunn
----------------------------8-8-6---------8-6---------------------------------
-------6-6---6-8-/10-\8-6-6-------6-6---6-----6h8p6----/5-6-/8-8-7-7h8p7------
-5-7-5-----5--------------------------5-------------6\-------------------5----
------------------------------------------------------------------------------
------------------------------------------------------------------------------
------------------------------------------------------------------------------


---------------------------------------|-6\-----------------------------------
-----------3-6-5-6/8-8-----------------|-8\-----------------------------------
-3-3-5-3-5-----------------------------|--------------------------------------
---------------------------------------|--------------------------------------
---------------------------------------|--------------------------------------
---------------------------------------|--------------------------------------
 Play previous line and this line twice| then play this                       

-8-------9----------9-10-/10-\8-----------------------------------------------
---11-10---------10-------------10-8------------------------------------------
-----------10-10---------------------10----10---------------------------------
----------------------------------------12------------------------------------
------------------------------------------------------------------------------
------------------------------------------------------------------------------


-------------------9-9-9-8------8-10-9-8--------------------------------------
-11-10-11-------11---------11-8-----------------------------------------------
-------------10---------------------------------------------------------------
----------12------------------------------------------------------------------
------------------------------------------------------------------------------
------------------------------------------------------------------------------


--8-------9-------9-10-/10-\8-8-10-11-/15-13----------------------------------
----11-10------10----------------------------16-15----------11-13~\-----------
------------10-------------------------------------15----13-------------------
------------------------------------------------------15----------------------
------------------------------------------------------------------------------
------------------------------------------------------------------------------


VGJam Tabs Sonic Adventure - "Windy and Ripply"
Tabs database last modified Monday, 21-Jul-2014 21:11:05 CDT.
Copyright © 1999 - 2014 VideoGameJam.com. All rights reserved.