VGJam Tabs Animal Crossing
Animal Crossing
"Town tune" - Guitar tab
Platform(s):GameCube
Composed by:Kenta Nagata, Toru Minegishi, Shinobu Tanaka
Tabbed by:Deezer
Last modified:2002-11-11
Print it:Original file (.TXT)
#----------------------------------PLEASE NOTE---------------------------------#
#This file is the author's own work and represents their interpretation of the #
#song. You may only use this file for private study, scholarship, or research. #
#------------------------------------------------------------------------------#


Animal Crossing (Nintendo GameCube)
"Town Tune"

Originally composed by: ?
------------------------------------------------------------------------------
Tabbed by: Deezer (deezer@kontek.net)
For http://www.kontek.net/vgjam/
------------------------------------------------------------------------------

Transposed down an octave.

Standard tuning: (low to high) EADGBe


-----12------------10-------------------------
-------------------------12--13---------------
-12--------12--10------------------?----------
----------------------------------------10----
----------------------------------------------
----------------------------------------------

The ? means a random note is played from the scale below:

 ---------------------------------------------10--12--
 ---------------------------------10--12--13----------
 -------------------------10--12----------------------
 -------------10--12--14------------------------------
 -10--12--14------------------------------------------
 -----------------------------------------------------

(Basically a C major scale [no sharps/flats] starting on G.)

For the interested, there's a Flash simulation of the customizable town
tune thing at http://www.animal-crossing.com/create.jsp -- click on "The
Melody Maker."


Last modified: 11/11/2002


VGJam Tabs Animal Crossing - "Town tune"
Tabs database last modified Tuesday, 01-Nov-2016 19:14:53 UTC.
Copyright © 1999 - 2016 VideoGameJam.com. All rights reserved.