VGJam Tabs Sonic Adventure 2
Sonic Adventure 2
"That's the Way I Like It" - Guitar tab
Platform(s):Dreamcast
Tabbed by:LousySpy
Last modified:2000-07-07
Print it:Original file (.TXT)
Author/Artist: Jun Senoue
Title: That's the Way I Like It... for Metal Harbor (lead melody)
Album: Sonic Adventure 2
Transcribed by: LousySpy
Email: lousyspy@edgeemu.com

I figured this song out on an acoustic, which is not 
how it's supposed to be played, but the notes sound
accurate.  Please let me know if anything is wrong.
Listen to the original to get the timing right and 
figure out vibrato/slides/etc.

-------8---------------------------------|------------------------------------
-----------8-11-11-8-11-10-8----9-9-8----|------------------------------------
-----------------------------10-------10-|------------------------------------
-10--------------------------------------|------------------------------------
-----------------------------------------|------------------------------------
-----------------------------------------|------------------------------------
 Play this part twice (played along with horns)


----------------------------------|--------------------------------8----------
----8-----------------------------|----8--------------------------------------
------9----9----9-9-10-12-10-9----|------9----9----9-9-10-12-10-9-------------
-10-----10---10----------------10-|-10-----10---10----------------------------
----------------------------------|-------------------------------------------
----------------------------------|-------------------------------------------


----------10-12-10----------|-------------10----------------------------------
-10-13-12----------13-12----|-10-13-12-13----13-10-12--15-13------------------
-------------------------12-|-------------------------------------------------
----------------------------|-------------------------------------------------
----------------------------|-------------------------------------------------
----------------------------|-------------------------------------------------


----------------------------------|--------------------------------8----------
----8-----------------------------|----8--------------------------------------
------9----9----9-9-10-12-10-9----|------9----9----9-9-10-12-10-9-------------
-10-----10---10----------------10-|-10-----10---10----------------------------
----------------------------------|-------------------------------------------
----------------------------------|-------------------------------------------


-------------10-------10-12-10----|-------------10----12-10-13--12------------
-10-13-12-13----13-------------13-|-10-13-12-13----13-------------------------
-------------------12-------------|-------------------------------------------
----------------------------------|-------------------------------------------
----------------------------------|-------------------------------------------
----------------------------------|-------------------------------------------


-15-13-12-10-8----15-13-12-10-8-8-8-10-8-7-10-8-|-----------------------------
------------------------------------------------|-----------------------------
------------------------------------------------|-----------------------------
------------------------------------------------|-----------------------------
------------------------------------------------|-----------------------------
------------------------------------------------|-----------------------------
 This part is played by two guitars, you can separate them yourself.


-15-13-12-10-8----15-17-12-10-8--10-12-15-13-|-15-13-12-----------------------
---------------------------------10-12-15-13-|-15-13-13-----------------------
---------------------------------------------|--------------------------------
---------------------------------------------|--------------------------------
---------------------------------------------|--------------------------------
---------------------------------------------|--------------------------------
 Repeat from beginning or use this bit here    ^^^^^^^^   
 to end it like in the OST.     

VGJam Tabs Sonic Adventure 2 - "That's the Way I Like It"
Tabs database last modified Tuesday, 01-Nov-2016 19:14:53 UTC.
Copyright © 1999 - 2016 VideoGameJam.com. All rights reserved.