VGJam Tabs Final Fantasy Adventure
Final Fantasy Adventure
"Boss Battle" - Guitar tab
Platform(s):Game Boy
Tabbed by:Arcallach
Last modified:2002-04-19
Print it:Original file (.TXT)
Hear it:MIDI file
Song: Boss Battle
From: Final Fantasy Adventure
Tabbed by Arcallach (arcallach@erols.com)
Feel free to send comments, corrections, requests, or anything else.

Lead Melody

e-7-9-10~--10-12-14-14-12-10-9~--7-9-10~--10-12-10-9-7-5-5~------------------
B----------------------------------------------------------------------------
G----------------------------------------------------------------------------
D----------------------------------------------------------------------------
A----------------------------------------------------------------------------
E----------------------------------------------------------------------------

e-7-9-10-9-7~--9-10-12-10-9-9-10-12-14~--12-14-15~--14-15-17~--15-17-18-14-9-
G----------------------------------------------------------------------------
B----------------------------------------------------------------------------
D----------------------------------------------------------------------------
A----------------------------------------------------------------------------
E----------------------------------------------------------------------------

e-7-9-10~--10-12-14-14-12-10-9~--7-9-10~--10-12-10-9-7-5-17~-----------------
B----------------------------------------------------------------------------
G----------------------------------------------------------------------------
D----------------------------------------------------------------------------
A----------------------------------------------------------------------------
E----------------------------------------------------------------------------

e-14-15-17-15-14-15~--14-9-12-10-9-7~--9-10-9~--5~--7~-----------------------
B----------------------------------------------------------------------------
G----------------------------------------------------------------------------
D----------------------------------------------------------------------------
A----------------------------------------------------------------------------
E----------------------------------------------------------------------------

e-2-3-5-7-9-10-14~--12-10-9-7-9~--7-9-10-12-10-7-5~--17-12~--15-14~----------
B----------------------------------------------------------------------------
G----------------------------------------------------------------------------
D----------------------------------------------------------------------------
A----------------------------------------------------------------------------
E----------------------------------------------------------------------------

e-5-3-2-3-5-7-8-7~----7-5-3-2-3~---------------------------------------------
B-------------------7--------------------------------------------------------
G----------------------------------------------------------------------------
D----------------------------------------------------------------------------
A----------------------------------------------------------------------------
E----------------------------------------------------------------------------

e-12-14-15~--14~--12~--10~--9---9-10---10-12---12-14~------------------------
B-----------------------------7------7-------7-------------------------------
G----------------------------------------------------------------------------
D----------------------------------------------------------------------------
A----------------------------------------------------------------------------
E----------------------------------------------------------------------------

VGJam Tabs Final Fantasy Adventure - "Boss Battle"
Tabs database last modified Tuesday, 01-Nov-2016 19:14:53 UTC.
Copyright © 1999 - 2016 VideoGameJam.com. All rights reserved.