VGJam Tabs Final Fantasy Adventure
Final Fantasy Adventure
"Dwarf Cave" - Guitar tab
Platform(s):Game Boy
Tabbed by:vampyre_chylde
Last modified:2001-08-28
Print it:Original file (.TXT)
Hear it:MIDI file
BASS

|--------------------------------------------------
|--------------------------------------------------
|--------------------------------------------------
|--------------------------------------------------
|----6---6---6---6---6---6-----4---4------6---6----
|--4---4---4---4---4---4-----2---2------4---4------

|---------------------------------------------------
|---------------------------------------------------
|---------------------------------------------------
|-----------------------------------------------3---
|---4---4-----6---6----4---4----6---6---3----6------
|-2---2-----4---4----2---2----4---4-----------------

|-------------------------------------4---4----------
|-------------------------------------4---4----------
|-------------------------------------6---5----------
|---6---6---6---6---------------------6---6----------
|-4---4---4---4-------6---6---6---6---4---6----------
|-------------------4---4---4---4---------4----------

|--------------------------------------------------
|--------------------------------------------------
|--------------------------------------------------
|--------------------------------------------------
|---4---4----6---6-----6----4-----6---6---6---6----
|-2---2----4---4----------------0---0---0---0------


Lead
|--------------------------------------------------------------
|-13-14-16-13-14-14-16-14-13-----13-13----13---------13--------
|----------------------------15--------15----13---15----15-----
|-----------------------------------------------------------16-
|--------------------------------------------------------------
|--------------------------------------------------------------

|----------16--14-14-16-13----------------------------
|-13-14-16-----------------16-14---16--------13-14-16-
|-----------------------------------------------------
|-----------------------------------------------------
|-----------------------------------------------------
|-----------------------------------------------------

|-13-13-12-13-15--16---13---11-11-10-11-15--16-----
|-14-14-13-14-16--16---14---13-13-12-13-16--16-----
|--------------------------------------------------
|--------------------------------------------------
|--------------------------------------------------
|--------------------------------------------------

|--------------------------------------------------
|--14-13-14-16--18----13-12-13-14-16---------------
|--------------------------------------------------
|--------------------------------------------------
|--------------------------------------------------
|--------------------------------------------------

(rough guess)
|--------------------------------------------------
|-13-11-13-14-16-14-13---13-11-13-14-13-11-9-------
|--------------------------------------------------
|--------------------------------------------------
|--------------------------------------------------
|--------------------------------------------------

|-----11--------9----------------------------------
|-------------------------------13-16-18-14--------
|--12----12/-10----10-12--10-12--------------------
|--------------------------------------------------
|--------------------------------------------------
|--------------------------------------------------

Questions, Comments, Help me, bitch at me, whatever...

vampyre_chylde@hotmail.com

VGJam Tabs Final Fantasy Adventure - "Dwarf Cave"
Tabs database last modified Tuesday, 01-Nov-2016 19:14:53 UTC.
Copyright © 1999 - 2016 VideoGameJam.com. All rights reserved.