VGJam Tabs Final Fantasy Adventure
Final Fantasy Adventure
"Overworld 1" - Guitar tab
Platform(s):Game Boy
Tabbed by:Arcallach
Last modified:2002-01-09
Print it:Original file (.TXT)
Hear it:MIDI file
Song: First Overworld
From: Final Fantasy Adventure
Tabbed by Arcallach (arcallach@erols.com)
Feel free to send comments, corrections, requests, or anything else.

Lead Melody

e-5-0h5-12~--10-8-7-3-7-8-7-0~--5-0h5-12~--10-8-10-8-10-12-15-12-16~--
B---------------------------------------------------------------------
G---------------------------------------------------------------------
D---------------------------------------------------------------------
A---------------------------------------------------------------------
E---------------------------------------------------------------------

e-17-13-12-10~--12-13-17-15-12-15-8~--10-8-7-5~--8-7-5-3~--7~--3-5~---
B---------------------------------------------------------------------
G---------------------------------------------------------------------
D---------------------------------------------------------------------
A---------------------------------------------------------------------
E---------------------------------------------------------------------

e-7-8-10-12~--10~--15-12~--10-8~--10-7~--15~--10~--7-8-10-8-7-3-------
B---------------------------------------------------------------------
G---------------------------------------------------------------------
D---------------------------------------------------------------------
A---------------------------------------------------------------------
E---------------------------------------------------------------------

e-5-7~--8-7~--3~--8-10~--12-11-12~--14-12~--10-8-10-8-7-3-------------
B---------------------------------------------------------------------
G---------------------------------------------------------------------
D---------------------------------------------------------------------
A---------------------------------------------------------------------
E---------------------------------------------------------------------

Repeat from the beginning.

VGJam Tabs Final Fantasy Adventure - "Overworld 1"
Tabs database last modified Tuesday, 01-Nov-2016 19:14:53 UTC.
Copyright © 1999 - 2016 VideoGameJam.com. All rights reserved.