VGJam Tabs Final Fantasy Adventure
Final Fantasy Adventure
"Mission of Mana" - Guitar tab
Platform(s):Game Boy
Tabbed by:Arcallach
Last modified:2002-01-09
Print it:Original file (.TXT)
Hear it:MIDI file
Song: Mission of Mana
From: Final Fantasy Adventure
Tabbed by Arcallach (arcallach@erols.com)
Feel free to send comments, corrections, requests, or anything else.

Strings/Guitar Melody

e-5~--4-5-7-5-4-5-----4-5-7-5-4-5-4~--2~--------------------------------
B-----------------2~----------------------3-2~--------------------------
G-----------------------------------------------------------------------
D-----------------------------------------------------------------------
A-----------------------------------------------------------------------
E-----------------------------------------------------------------------

e-2-4-5-2-10~--5-4~--4-5-7-4-9~--4-2~--2-4-5-2-7~--5~--4-2-1-2-4~-------
B-----------------------------------------------------------------------
G-----------------------------------------------------------------------
D-----------------------------------------------------------------------
A-----------------------------------------------------------------------
E-----------------------------------------------------------------------

Play that twice, then this once...

e-8~--7-8-10-8-7-8-0~--7-8-10-8-7-8-5~--3-1-0~--------------------------
B-----------------------------------------------------------------------
G-----------------------------------------------------------------------
D-----------------------------------------------------------------------
A-----------------------------------------------------------------------
E-----------------------------------------------------------------------

e-5-7-8-5-13~--8-7~--7-8-10-12~--7-5~--5-7-8-5-10~--8~--7-5-4-5-7~--5~--
B-----------------------------------------------------------------------
G-----------------------------------------------------------------------
D-----------------------------------------------------------------------
A-----------------------------------------------------------------------
E-----------------------------------------------------------------------

Repeat from beginning!

Note: This tab does not work well with WordPad. Sorry.

VGJam Tabs Final Fantasy Adventure - "Mission of Mana"
Tabs database last modified Tuesday, 01-Nov-2016 19:14:53 UTC.
Copyright © 1999 - 2016 VideoGameJam.com. All rights reserved.