VGJam Tabs Final Fantasy Adventure
Final Fantasy Adventure
"Title screen" - Guitar tab
Platform(s):Game Boy
Tabbed by:Chris Best
Last modified:2002-07-25
Print it:Original file (.TXT)
Hear it:MIDI file
Game: Final Fantasy Adventure (Gameboy)
Title Theme 

We tabbed this from a MIDI file (author unknown - ffattl.mid) 
in about thirty minutes (including goof off time). There are 
probably errors... But we don't really care. It sounds about 
right. Sounds way better than when we started. :P 

 Written by Chris Best (merrow@bellsouth.net) 
 and played by his little brother (*snicker*) (pbest15@bellsouth.net)

Melody

e -----------------------------------------------------
A -----------------------------------------------------
D -----------------------------------------------------
G ---5---------------5---------------------------------
B -5---7-7-8-7-5-3-5---7-3-2-3-2---0-0-2-3-5-0-2-3-5-3-
E -------------------------------3---------------------

e -----------------------------------------------------
A -----------------------------------------------------
D -----------------------------------------------------
G ---5---------------5---------------------------------
B -5---7-7-8-7-5-3-5---7-3-2-3-2---0-0-2-3-5-7-5-3-3---
E -------------------------------3---------------------

Background 

E ---------------------5-7-8-----5-7-8-----1-3-5-----2-3-5-----3-5-7-----3-5-7-----
B -3-5-7-----3-5-7-----------7---------7---------3---------3---------5---------5---
G -------5---------5-----------7---------7---------3---------4---------5---------5-
D ---------5---------5-------------------------------------------------------------
A ---------------------------------------------------------------------------------
e ---------------------------------------------------------------------------------

VGJam Tabs Final Fantasy Adventure - "Title screen"
Tabs database last modified Tuesday, 01-Nov-2016 19:14:53 UTC.
Copyright © 1999 - 2016 VideoGameJam.com. All rights reserved.