VGJam Tabs Final Fantasy Legend II
Final Fantasy Legend II
"Burning Blood" - Guitar tab
Platform(s):Game Boy
Tabbed by:Arcallach
Last modified:2002-01-26
Print it:Original file (.TXT)
Hear it:MIDI file
Song: Burning Blood
From: Final Fantasy Legend II
Tabbed by Arcallach (arcallach@erols.com)
Feel free to send comments, corrections, requests, or anything else.

Square Lead

e-9---2-5-9-10-10-9-7-5-7---0-4-7-9-9-7-9-5-----2-5-7-7-5-7-5-----
B---------------------------------------------3-------------------
G-----------------------------------------------------------------
D-----------------------------------------------------------------
A-----------------------------------------------------------------
E-----------------------------------------------------------------

e-9---2-5-9-10-10-9-7-5-7---0-4-7-9-9-7-9-5-----2-5-7-7-5-7-5-----
B---------------------------------------------3-------------------
G-----------------------------------------------------------------
D-----------------------------------------------------------------
A-----------------------------------------------------------------
E-----------------------------------------------------------------

e-5---2---5-7---4---7---4---7-9-10-9-7-9-7-5---4-5-7-5-4-2-5-4----
B-----------------------------------------------------------------
G-----------------------------------------------------------------
D-----------------------------------------------------------------
A-----------------------------------------------------------------
E-----------------------------------------------------------------

Overdriven Guitar

e-----------------------------------------------------------------
B-----------------0---1---0-----------------------0---1---0-------
G---------2-----------------2-2-2---------2-----------------2-2-2-
D-4-4-4-4---4-4-4---4---4---------4-4-4-4---4-4-4---4---4---------
A-----------------------------------------------------------------
E-----------------------------------------------------------------

e-----------------------------------------------------------------
B---------0-------2---3---2-0-0-0---------0-------2---3---2-0-0-0-
G-1-1-1-1---1-1-1---1---1---------1-1-1-1---1-1-1---1---1---------
D-----------------------------------------------------------------
A-----------------------------------------------------------------
E-----------------------------------------------------------------

e-----------------------------------------------------------------
B-----------------0---1---0-----------------------0---1---0-------
G---------2-----------------2-2-2---------2-----------------2-2-2-
D-4-4-4-4---4-4-4---4---4---------4-4-4-4---4-4-4---4---4---------
A-----------------------------------------------------------------
E-----------------------------------------------------------------

e-----------------------------------------------------------------
B---------0-------2---3---2-0-0-0---------0-------2---3---2-0-0-0-
G-1-1-1-1---1-1-1---1---1---------1-1-1-1---1-1-1---1---1---------
D-----------------------------------------------------------------
A-----------------------------------------------------------------
E-----------------------------------------------------------------

e-----------------------------------------------------------------
B-----------------0---2---0---------------------------------------
G---------2-----------------2-2-2-----------------1---2---1-------
D-4-4-4-4---4-4-4---4---4---------0-0-0-0-0-0-0-0---0---0---0-0-0-
A-----------------------------------------------------------------
E-----------------------------------------------------------------

e-----------------------------------------------------------------
B---------------------0-------------------------------------------
G---------1-------2-------2-1-1-1-----------------1---2---1-------
D-2-2-2-2---2-2-2---2---2-----------------4-----------------4-4-4-
A---------------------------------4-4-4-4---4-4-4---4---4---------
E-----------------------------------------------------------------

e-----------------------------------------------------------------
B-----------------------------------------------------0-----------
G---------------------2---2---------------1-------2-------2-1-1-1-
D-0-0-0-0-0-0-0-0-4-0---0---4-4-4-2-2-2-2---2-2-2---2---2---------
A-----------------------------------------------------------------
E-----------------------------------------------------------------

e-----------------------------------------------------------------
B-----------------------------------------2-------0---------------
G-----------------1---2---1---------------------------2---1-----1-
D---------4-----------------4-4-4---------------------------3-4---
A-4-4-4-4---4-4-4---4---4---------4-4-4-4---4-4-4---4---4---------
E-----------------------------------------------------------------

e-----------------------------------------------------------------
B-----------------0---2---0---------------------------------------
G---------2-----------------2-2-2-----------------1---2---1-------
D-4-4-4-4---4-4-4---4---4---------0-0-0-0-0-0-0-0---0---0---0-0-0-
A-----------------------------------------------------------------
E-----------------------------------------------------------------

e-----------------------------------------------------------------
B---------------------0-------------------------------------------
G---------1-------2-------2---------------------------1-----------
D-2-2-2-2---2-2-2---2---2---2-2-2---------3-------4-------4-3-3-3-
A---------------------------------4-4-4-4---4-4-4---4---4---------
E-----------------------------------------------------------------

e-----------------------------------------------------------------
B-----------------------------------------------------0-----------
G---------------------2---2---------------1-------2-------2-1-1-1-
D-0-0-0-0-0-0-0-0-4-0---0---4-4-4-2-2-2-2---2-2-2---2---2---------
A-----------------------------------------------------------------
E-----------------------------------------------------------------

e-----------------------------------------------------------------
B-----------------------------------------2-------0---------------
G-----------------1---2---1---------------------------2---1-----1-
D---------4-----------------4-4-4---------------------------3-4---
A-4-4-4-4---4-4-4---4---4---------4-4-4-4---4-4-4---4---4---------
E-----------------------------------------------------------------

e-----------------------------0-----0-----0-----0-2-----2-0-------
B---2-3---2-3---2-3---2-3---0-----0-----0-----0-----2-------0---2-
G-----------------------------------------------------2-------1---
D-0-----0-----0-----0-----0-----0-----0-----0---------------------
A-----------------------------------------------------------------
E-----------------------------------------------------------------

e-----------------------------------------------------------------
B-----3-3-3-3---------0-0-0-0---------2-2-2-2-0-0-0-0-------------
G-2-2---------2-2-2-2---------2-2-2-2-----------------2-2-2-2-----
D-----------------------------------------------------------------
A-----------------------------------------------------------------
E-----------------------------------------------------------------

e-----------------------------------------------------------------
B-----------------2---3---2---------------------------------------
G-----1---1-------------1---1-1-1---------------------------------
D-------------------------------------3-----------4-3-3-3---------
A-4-4---4---4-4-4---4-------------4-4---4-4-4-4-4-----------------
E-----------------------------------------------------------------

Repeat from the beginning (without intro, about 0:12 into the song).

VGJam Tabs Final Fantasy Legend II - "Burning Blood"
Tabs database last modified Tuesday, 01-Nov-2016 19:14:53 UTC.
Copyright © 1999 - 2016 VideoGameJam.com. All rights reserved.