VGJam Tabs Final Fantasy Legend II
Final Fantasy Legend II
"Heartful Tears" - Guitar tab
Platform(s):Game Boy
Tabbed by:vampyre_chylde
Last modified:2001-08-28
Print it:Original file (.TXT)
Hear it:MIDI file
|---3*----5*----7*----5*----3*---5*----2**----5---5---
|-5-----7-----8-----7-----5----7-----5------5---5-----   *= repeat 4 times
|-----------------------------------------------------  **= repeat 6 times
|-----------------------------------------------------
|-----------------------------------------------------
|-----------------------------------------------------

|---3*----5*----7*----5*----3*---5*----3**------------
|-5-----7-----8-----7-----5----7-----5----------------   *= repeat 4 times
|-----------------------------------------------------  **= repeat 8 times
|-----------------------------------------------------
|-----------------------------------------------------
|-----------------------------------------------------

|----------------------------15-17-19--------------
|---------10-8-----15-17-18------------------------
|--7-9-10------------------------------------------
|--------------------------------------------------
|--------------------------------------------------
|--------------------------------------------------

|--------------------------7--(-14-13-14------17-15-14-)
|---------13----------8-10----(-----------16-----------)
|-9-11-12------7-9-10-----------played on last time----
|------------------------------------------------------
|------------------------------------------------------
|------------------------------------------------------
Play twice



LEAD
|--------------------------10--------------------------------
|---------10-12~----12-10------12---------------10-----------
|-9-11-12--------------------------12~-----11-9-----7---5~---
|------------------------------------------------------------
|------------------------------------------------------------
|------------------------------------------------------------

|---------------------------
|-----5--3--1-------2--5-4--
|-5-7----------4--3---------
|---------------------------
|---------------------------
|---------------------------

|--------------------------10--------------------------------
|---------10-12~----12-10------12---------------10-----------
|-9-11-12--------------------------12~-----11-9-----7---5~---
|------------------------------------------------------------
|------------------------------------------------------------
|------------------------------------------------------------

|-----------------------
|-------8-7--5--3-7-5---
|--5-4------------------
|-----------------------
|-----------------------
|-----------------------


|-------------8-7-----7------------------12---10-8-10--
|----------10------10---8------------13----------------
|--7-9-10--------------------9-10-12-------------------
|------------------------------------------------------
|------------------------------------------------------
|------------------------------------------------------

do the last part again but ending on 7 on the e string instead of 10



BASS
|----------------------------------------------------
|----------------------------------------------------
|----------------------------------------------------
|-2~---2-0~---------------------2--------4-----------
|-------------3---3-2---0----0--------------4-----2--
|----------------------------------------------------

|----------------------------------------------------
|----------------------------------------------------
|----------------------------------------------------
|-2~---2-0~----------------------------------0-------
|-------------3---3-2---0----0--2-----2-3------------
|----------------------------------------------------

|-----------------------------------------------------
|-------------------------------5--5------------------
|-------5--5--------------------5--5------------------
|-------5--5-----5----5----3-3------------5---5-------
|--5-5--------------5-----------------------5---------
|-------------3------------------------3--------------

|--------------------------------------------
|-------------------------------5--5----5----
|-------5--5--------------------5--5---------
|-------5--5-----5----5----3-3---------------
|--5-5--------------5------------------------
|-------------3----------------------------3-

Questions, Comments, Help me, bitch at me, whatever...

vampyre_chylde@hotmail.com

VGJam Tabs Final Fantasy Legend II - "Heartful Tears"
Tabs database last modified Tuesday, 01-Nov-2016 19:14:53 UTC.
Copyright © 1999 - 2016 VideoGameJam.com. All rights reserved.