VGJam Tabs Final Fantasy Legend II
Final Fantasy Legend II
"Title screen" - Guitar tab
Platform(s):Game Boy
Tabbed by:Thomas McManus
Last modified:1999-11-23
Print it:Original file (.TXT)
Hear it:MIDI file
Game: Final Fantasy Legend II
Song: Let it Begin (title screen music)
Tabbed by: Thomas McManus (tom0015@hotmail.com)


My first completed tab! ^_^

Play intro once, then repeat main as many times as you like.

INTRO:

e---------------------------------5~-4-5-7-----5~-4-5-7-5--------
B------------0------------0---3-3---------3-3--------------------
G-----2~-1-2-------2~-1-2---2------------------------------------
D-0-0----------0-0-----------------------------------------------
A----------------------------------------------------------------
E----------------------------------------------------------------

MAIN:

e-2-2-3-2-0-3-2----------0--------2-2-3-2-0-3-2----------0---5~--
B---------------3~-----3---3-3-2~---------------3~-----3---3-----
G------------------2-3-----------------------------2-3-----------
D----------------------------------------------------------------
A----------------------------------------------------------------
E----------------------------------------------------------------

e-----5~-4-5-7-5~-----6-8-6-5~-----5~-4-5-7-5~-----10~-8-6-5~----
B-3-3-------------3-3----------3-3-------------3-3---------------
G----------------------------------------------------------------
D----------------------------------------------------------------
A----------------------------------------------------------------
E----------------------------------------------------------------

VGJam Tabs Final Fantasy Legend II - "Title screen"
Tabs database last modified Tuesday, 01-Nov-2016 19:14:53 UTC.
Copyright © 1999 - 2016 VideoGameJam.com. All rights reserved.